One i love live Chord Guitar - Coldplay

Tabbed By : Cl'me
e-mail:*

Tuning: E A D G
Intro+Chorus
G|-----------------------------------------------------repeat 2*----------------|
D|------------------------------------------------------------------------------|
A|---------33333333--------55555555---------------------------------------------|
E|-55555555--------33333333-----------------------------------------------------|
Verse 1
G|---------------------------------------------------------------------------|
D|---------------------------------------------------------------------------|
A|---------------------------------------------------------------------------|
E|-5----------------5--------------35---------------5------------------------|

G|-----------------------------------------------------repeat 4*----------------|
D|-777--7--7-------777--7-------------------------------------------------------|
A|----07--7--3-3/5----07--0-7-3-3/5---------------------------------------------|
E|------------------------------------------------------------------------------|
Verse 2
G|---------------------------------------------------------------------------|
D|----------------------------------------------5757-------------------------|
A|---------------------------------------------------------------------------|
E|-5----------------5------------3535-------5---------------5----------------|

G|-----------------------------------------------------repeat 4*----------------|
D|-777--7--7-------777--7-------------------------------------------------------|
A|----07--7--3-3/5----07--0-7-3-3/5---------------------------------------------|
E|------------------------------------------------------------------------------|
Bridge
G|---------------------------------------------------------------------------|
D|---------------------------------------------------------------------------|
A|---------------------------------------------------------------------------|
E|-5----------------5---------------5--------------5-------------------------|
Outro 2
G|---------------------------------------------------------------------------|
D|---------------------------------------------------------------------------|
A|---------------------------------------------------------------------------|
E|-1/-------0-------5-------------5-1/------0------5-------------------------|


G|-----------------------------------------------------------------------------|
D|-3--------2/-----5----7-----------3-------2/-----5-7-57----------------------|
A|--------------------------(0)------------------------------------------------|
E|-----------------------------------------------------------------------------|


G|-----------------------------------------------------------------------------|
D|-3--------2/-----5----7-----------3-------2/-----5-7-57----------------------|
A|---------------------------0----------------------------00000000000000000----|
E|-----------------------------------------------------------------------------|

Intro
Verse 1
Chorus
Verse 2
Bridge
Chorus repeat 4*
bridge+Outro

| / slide up
| \ slide down
| h hammer-on
| p pull-off
| ~ vibrato
| + harmonic
| x Mute note
===============================================================================

Iklan Atas Artikel

Iklan Tengah Artikel 1

Iklan Tengah Artikel 2

Iklan Bawah Artikel