Don't you remeber Chord Guitar - Adele

Intro: 
E|--4-4--3--3----4-4--3-----3---3---3---3----
B|--4-4--4--4----4-4--4-4?--4---4---4---4----
G|---3----3--3-3--3----3-3-3-3-3-3-3-3-3-3---
D|------------1-----------1---1---1---1---1--
A|-------------------------------------------
E|-------------------------------------------

Riff 1:
E|----------------
B|--------------?-
G|----------------
D|--3h5-----------
A|-----6----------
E|----------------

Riff 2:
E|----------------
B|--------------?-
G|--3h5p3h5-3-----
D|----------------
A|----------------
E|----------------

Riff 3:
E|--3h4p3---------
B|--------------?-
G|----------------
D|----------------
A|----------------
E|----------------

Eb Eb Ab
When will I see you again?
Cm Eb Ab
You left with no goodbye, not a single word was said
Eb Eb Ab
No final kiss to seal anything
Cm Eb Ab
I had no idea of the state we were in.

Bb
I know I have a fickle heart and bitterness
Cm G Bb
And a wandering eye, and a heaviness in my head

Eb Eb Ab Fm Bb Eb
But don't you remember, don't you remember?
Ab Eb Eb Ab
The reason you loved me before,
Fm Bb Eb Ab
Baby please remember me once more.

Eb Ab
When was the last time you thought of me?
Cm Eb Ab
Or have you completely erased me from your memories?
Eb Eb Ab
Cause I often think about where I want to roam.
Cm Eb Ab
You more I do, the less I know.

Bb
I know I have a fickle heart and bitterness
Cm G Bb
And a wandering eye, and a heaviness in my head

Eb Eb Ab Fm Bb Eb
But don't you remember, don't you remember?
Ab Eb Eb Ab
The reason you loved me before,
Fm Bb Ab
Baby please remember me once more.
Ab
Ohhhh

B F#
I gave you the space so you could breathe,
C# G#
I kept my distance so you would be free,
B D#m
I hope that you find the missing piece
Fm A#
To bring you back to me.

F F Bb Gm C F
Why don't you remember, don't you remember?
Bb F F Bb
The reason you loved me before,
Gm C Bb
Baby please remember me once more.
F Bb
When will I see you again?

Iklan Atas Artikel

Iklan Tengah Artikel 1

Iklan Tengah Artikel 2

Iklan Bawah Artikel